ISO-10303-21;
HEADER;
FILE_DESCRIPTION (( 'STEP AP203' ),
    '1' );
FILE_NAME ('Çàãëóøêà òîðöåâàÿ BPO_BPO4182.STEP',
    '2012-11-21T12:35:53',
    ( 'Àñååâ' ),
    ( '' ),
    'SwSTEP 2.0',
    'SolidWorks 2012',
    '' );
FILE_SCHEMA (( 'CONFIG_CONTROL_DESIGN' ));
ENDSEC;

DATA;
#1 = EDGE_CURVE ( 'NONE', #362, #368, #299, .T. ) ;
#2 = EDGE_CURVE ( 'NONE', #327, #362, #375, .T. ) ;
#3 = EDGE_CURVE ( 'NONE', #376, #327, #300, .T. ) ;
#4 = EDGE_CURVE ( 'NONE', #368, #365, #297, .T. ) ;
#5 = EDGE_CURVE ( 'NONE', #362, #372, #293, .T. ) ;
#6 = EDGE_CURVE ( 'NONE', #327, #379, #291, .T. ) ;
#7 = EDGE_CURVE ( 'NONE', #376, #358, #289, .T. ) ;
#8 = EDGE_CURVE ( 'NONE', #343, #377, #295, .T. ) ;
#9 = EDGE_CURVE ( 'NONE', #377, #335, #287, .T. ) ;
#10 = EDGE_CURVE ( 'NONE', #335, #347, #283, .T. ) ;
#11 = EDGE_CURVE ( 'NONE', #331, #339, #281, .T. ) ;
#12 = EDGE_CURVE ( 'NONE', #339, #373, #285, .T. ) ;
#13 = EDGE_CURVE ( 'NONE', #373, #350, #279, .T. ) ;
#14 = EDGE_CURVE ( 'NONE', #350, #331, #277, .T. ) ;
#15 = EDGE_CURVE ( 'NONE', #347, #343, #275, .T. ) ;
#16 = EDGE_CURVE ( 'NONE', #343, #331, #271, .T. ) ;
#17 = EDGE_CURVE ( 'NONE', #347, #350, #269, .T. ) ;
#18 = EDGE_CURVE ( 'NONE', #335, #373, #267, .T. ) ;
#19 = EDGE_CURVE ( 'NONE', #377, #339, #265, .T. ) ;
#20 = EDGE_CURVE ( 'NONE', #365, #358, #263, .T. ) ;
#21 = EDGE_CURVE ( 'NONE', #358, #379, #273, .T. ) ;
#22 = EDGE_CURVE ( 'NONE', #379, #372, #259, .T. ) ;
#23 = EDGE_CURVE ( 'NONE', #372, #365, #257, .T. ) ;
#24 = EDGE_CURVE ( 'NONE', #368, #376, #255, .T. ) ;
#25 = SHAPE_DEFINITION_REPRESENTATION ( #70, #240 ) ;
#26 = ORGANIZATION ( 'UNSPECIFIED', 'UNSPECIFIED', '' ) ;
#27 = FACE_OUTER_BOUND ( 'NONE', #374, .T. ) ;
#28 = FACE_OUTER_BOUND ( 'NONE', #357, .T. ) ;
#29 = FACE_OUTER_BOUND ( 'NONE', #354, .T. ) ;
#30 = FACE_OUTER_BOUND ( 'NONE', #346, .T. ) ;
#31 = FACE_OUTER_BOUND ( 'NONE', #338, .T. ) ;
#32 = APPROVAL_DATE_TIME ( #34, #82 ) ;
#33 = FACE_BOUND ( 'NONE', #334, .T. ) ;
#34 = DATE_AND_TIME ( #35, #36 ) ;
#35 = CALENDAR_DATE ( 2012, 21, 11 ) ;
#36 = LOCAL_TIME ( 16, 35, 53.00000000000000000, #37 ) ;
#37 = COORDINATED_UNIVERSAL_TIME_OFFSET ( 4, 0, .AHEAD. ) ;
#38 = APPROVAL_PERSON_ORGANIZATION ( #39, #82, #127 ) ;
#39 = PERSON_AND_ORGANIZATION ( #104, #26 ) ;
#40 = DATE_AND_TIME ( #41, #42 ) ;
#41 = CALENDAR_DATE ( 2012, 21, 11 ) ;
#42 = LOCAL_TIME ( 16, 35, 53.00000000000000000, #43 ) ;
#43 = COORDINATED_UNIVERSAL_TIME_OFFSET ( 4, 0, .AHEAD. ) ;
#44 = PERSON_AND_ORGANIZATION ( #104, #26 ) ;
#45 = PERSON_AND_ORGANIZATION ( #104, #26 ) ;
#46 = PERSON_AND_ORGANIZATION ( #104, #26 ) ;
#47 = FACE_OUTER_BOUND ( 'NONE', #369, .T. ) ;
#48 = APPROVAL_DATE_TIME ( #49, #75 ) ;
#49 = DATE_AND_TIME ( #50, #51 ) ;
#50 = CALENDAR_DATE ( 2012, 21, 11 ) ;
#51 = LOCAL_TIME ( 16, 35, 53.00000000000000000, #52 ) ;
#52 = COORDINATED_UNIVERSAL_TIME_OFFSET ( 4, 0, .AHEAD. ) ;
#53 = APPROVAL_PERSON_ORGANIZATION ( #54, #75, #108 ) ;
#54 = PERSON_AND_ORGANIZATION ( #104, #26 ) ;
#55 = DATE_AND_TIME ( #56, #57 ) ;
#56 = CALENDAR_DATE ( 2012, 21, 11 ) ;
#57 = LOCAL_TIME ( 16, 35, 53.00000000000000000, #58 ) ;
#58 = COORDINATED_UNIVERSAL_TIME_OFFSET ( 4, 0, .AHEAD. ) ;
#59 = FACE_OUTER_BOUND ( 'NONE', #370, .T. ) ;
#60 = PERSON_AND_ORGANIZATION ( #104, #26 ) ;
#61 = APPROVAL_DATE_TIME ( #62, #94 ) ;
#62 = DATE_AND_TIME ( #63, #64 ) ;
#63 = CALENDAR_DATE ( 2012, 21, 11 ) ;
#64 = LOCAL_TIME ( 16, 35, 53.00000000000000000, #65 ) ;
#65 = COORDINATED_UNIVERSAL_TIME_OFFSET ( 4, 0, .AHEAD. ) ;
#66 = APPROVAL_PERSON_ORGANIZATION ( #67, #94, #141 ) ;
#67 = PERSON_AND_ORGANIZATION ( #104, #26 ) ;
#68 = PERSON_AND_ORGANIZATION ( #104, #26 ) ;
#69 = FACE_OUTER_BOUND ( 'NONE', #330, .T. ) ;
#70 = PRODUCT_DEFINITION_SHAPE ( 'NONE', 'NONE',  #93 ) ;
#71 = DESIGN_CONTEXT ( 'detailed design', #169, 'design' ) ;
#72 = CC_DESIGN_PERSON_AND_ORGANIZATION_ASSIGNMENT ( #60, #218, ( #93 ) ) ;
#73 = CC_DESIGN_DATE_AND_TIME_ASSIGNMENT ( #55, #209, ( #93 ) ) ;
#74 = PRODUCT_DEFINITION_FORMATION_WITH_SPECIFIED_SOURCE ( 'ANY', '', #103, .NOT_KNOWN. ) ;
#75 = APPROVAL ( #123, 'UNSPECIFIED' ) ;
#76 = CC_DESIGN_APPROVAL ( #75, ( #74 ) ) ;
#77 = CC_DESIGN_PERSON_AND_ORGANIZATION_ASSIGNMENT ( #46, #221, ( #74 ) ) ;
#78 = CC_DESIGN_PERSON_AND_ORGANIZATION_ASSIGNMENT ( #45, #224, ( #74 ) ) ;
#79 = SECURITY_CLASSIFICATION ( '', '', #158 ) ;
#80 = CC_DESIGN_PERSON_AND_ORGANIZATION_ASSIGNMENT ( #44, #225, ( #79 ) ) ;
#81 = CC_DESIGN_DATE_AND_TIME_ASSIGNMENT ( #40, #105, ( #79 ) ) ;
#82 = APPROVAL ( #106, 'UNSPECIFIED' ) ;
#83 = CC_DESIGN_APPROVAL ( #82, ( #79 ) ) ;
#84 = CC_DESIGN_SECURITY_CLASSIFICATION ( #79, ( #74 ) ) ;
#85 = PRODUCT_RELATED_PRODUCT_CATEGORY ( 'detail', '', ( #103 ) ) ;
#86 = AXIS2_PLACEMENT_3D ( 'NONE', #115, #235, #175 ) ;
#87 = AXIS2_PLACEMENT_3D ( 'NONE', #178, #197, #177 ) ;
#88 = AXIS2_PLACEMENT_3D ( 'NONE', #213, #162, #233 ) ;
#89 =( GEOMETRIC_REPRESENTATION_CONTEXT ( 3 ) GLOBAL_UNCERTAINTY_ASSIGNED_CONTEXT ( ( #238 ) ) GLOBAL_UNIT_ASSIGNED_CONTEXT ( ( #204, #230, #144 ) ) REPRESENTATION_CONTEXT ( 'NONE', 'WORKASPACE' ) );
#90 = AXIS2_PLACEMENT_3D ( 'NONE', #228, #173, #174 ) ;
#91 = AXIS2_PLACEMENT_3D ( 'NONE', #237, #194, #196 ) ;
#92 = CC_DESIGN_PERSON_AND_ORGANIZATION_ASSIGNMENT ( #68, #165, ( #103 ) ) ;
#93 = PRODUCT_DEFINITION ( 'UNKNOWN', '', #74, #71 ) ;
#94 = APPROVAL ( #125, 'UNSPECIFIED' ) ;
#95 = CC_DESIGN_APPROVAL ( #94, ( #93 ) ) ;
#96 = AXIS2_PLACEMENT_3D ( 'NONE', #107, #154, #227 ) ;
#97 = AXIS2_PLACEMENT_3D ( 'NONE', #166, #139, #138 ) ;
#98 = AXIS2_PLACEMENT_3D ( 'NONE', #212, #161, #170 ) ;
#99 = AXIS2_PLACEMENT_3D ( 'NONE', #206, #146, #168 ) ;
#100 = AXIS2_PLACEMENT_3D ( 'NONE', #219, #223, #220 ) ;
#101 = AXIS2_PLACEMENT_3D ( 'NONE', #232, #109, #160 ) ;
#102 = AXIS2_PLACEMENT_3D ( 'NONE', #217, #183, #205 ) ;
#103 = PRODUCT ( 'Çàãëóøêà òîðöåâàÿ BPO_BPO4182', 'Çàãëóøêà òîðöåâàÿ BPO_BPO4182', '', ( #159 ) ) ;
#104 = PERSON ( 'UNSPECIFIED', 'UNSPECIFIED', 'UNSPECIFIED', ('UNSPECIFIED'), ('UNSPECIFIED'), ('UNSPECIFIED') ) ;
#105 = DATE_TIME_ROLE ( 'classification_date' ) ;
#106 = APPROVAL_STATUS ( 'not_yet_approved' ) ;
#107 = CARTESIAN_POINT ( 'NONE',  ( 20.00086692690764800, 39.75000000000000000, 29.95836945528781600 ) ) ;
#108 = APPROVAL_ROLE ( '' ) ;
#109 = DIRECTION ( 'NONE',  ( 1.635784495117367600E-016, 0.9901138386947149200, -0.1402661271484178800 ) ) ;
#110 = CARTESIAN_POINT ( 'NONE',  ( 20.99999999999999600, 39.75000000000000000, 30.00000000000000000 ) ) ;
#111 = DIRECTION ( 'NONE',  ( 0.04121968119370927200, -0.1401469160586115700, 0.9892723486490205800 ) ) ;
#112 = CARTESIAN_POINT ( 'NONE',  ( -20.00666734916497400, 38.76563422280171500, 29.81915932111211700 ) ) ;
#113 = CARTESIAN_POINT ( 'NONE',  ( 20.00666734916496700, 38.76563422280171500, 29.81915932111211400 ) ) ;
#114 = DIRECTION ( 'NONE',  ( 1.309225264888156900E-016, -1.000000000000000000, 0.0000000000000000000 ) ) ;
#115 = CARTESIAN_POINT ( 'NONE',  ( -22.24999999999999600, -44.00000000000000000, 0.0000000000000000000 ) ) ;
#116 = PLANE ( 'NONE',  #101 ) ;
#117 = PLANE ( 'NONE',  #90 ) ;
#118 = CARTESIAN_POINT ( 'NONE',  ( -22.25000000000001400, 44.00000000000001400, 0.0000000000000000000 ) ) ;
#119 = CARTESIAN_POINT ( 'NONE',  ( 20.00666734916497400, -38.76563422280171500, 29.81915932111211700 ) ) ;
#120 = DIRECTION ( 'NONE',  ( -0.04121968119370877200, -0.1401469160586116000, 0.9892723486490205800 ) ) ;
#121 = DIRECTION ( 'NONE',  ( 0.04121968119370923000, 0.1401469160586111500, 0.9892723486490206900 ) ) ;
#122 = CARTESIAN_POINT ( 'NONE',  ( -20.00666734916496400, -38.76563422280170800, 29.81915932111211400 ) ) ;
#123 = APPROVAL_STATUS ( 'not_yet_approved' ) ;
#124 = DIRECTION ( 'NONE',  ( -0.04121968119370880000, 0.1401469160586111300, 0.9892723486490206900 ) ) ;
#125 = APPROVAL_STATUS ( 'not_yet_approved' ) ;
#126 = CARTESIAN_POINT ( 'NONE',  ( -21.00000000000000400, 39.75000000000000000, 30.00000000000000000 ) ) ;
#127 = APPROVAL_ROLE ( '' ) ;
#128 = CARTESIAN_POINT ( 'NONE',  ( 22.25000000000000000, -44.00000000000000000, 0.0000000000000000000 ) ) ;
#129 = CARTESIAN_POINT ( 'NONE',  ( -20.99999999999999300, -39.74999999999999300, 30.00000000000000000 ) ) ;
#130 = DIRECTION ( 'NONE',  ( 1.000000000000000000, -1.652117596168388200E-016, 0.0000000000000000000 ) ) ;
#131 = CARTESIAN_POINT ( 'NONE',  ( 21.20746565421129400, 39.75000000000000000, 1.000000000000000900 ) ) ;
#132 = CARTESIAN_POINT ( 'NONE',  ( 19.99913232087797300, 39.75000000000000000, 30.00000000000000000 ) ) ;
#133 = DIRECTION ( 'NONE',  ( -8.728168432587707900E-017, 1.000000000000000000, 0.0000000000000000000 ) ) ;
#134 = DIRECTION ( 'NONE',  ( -8.728168432587707900E-017, 1.000000000000000000, 0.0000000000000000000 ) ) ;
#135 = CARTESIAN_POINT ( 'NONE',  ( -21.00000000000000400, 38.74001512662592700, 30.00000000000000000 ) ) ;
#136 = CARTESIAN_POINT ( 'NONE',  ( -19.99913232087796900, -39.74999999999998600, 30.00000000000000000 ) ) ;
#137 = DIRECTION ( 'NONE',  ( -0.04121968119370877200, -0.1401469160586116000, 0.9892723486490205800 ) ) ;
#138 = DIRECTION ( 'NONE',  ( 1.000000000000000000, 0.0000000000000000000, 0.0000000000000000000 ) ) ;
#139 = DIRECTION ( 'NONE',  ( -0.0000000000000000000, 0.0000000000000000000, 1.000000000000000000 ) ) ;
#140 = DIRECTION ( 'NONE',  ( -1.000000000000000000, 0.0000000000000000000, 0.0000000000000000000 ) ) ;
#141 = APPROVAL_ROLE ( '' ) ;
#142 = CARTESIAN_POINT ( 'NONE',  ( 22.24999999999998600, 44.00000000000001400, 0.0000000000000000000 ) ) ;
#143 = DIRECTION ( 'NONE',  ( -1.000000000000000000, -0.0000000000000000000, -0.0000000000000000000 ) ) ;
#144 =( NAMED_UNIT ( * ) SI_UNIT ( $, .STERADIAN. ) SOLID_ANGLE_UNIT ( ) );
#145 = DIRECTION ( 'NONE',  ( -1.577021341797097300E-016, 1.000000000000000000, -0.0000000000000000000 ) ) ;
#146 = DIRECTION ( 'NONE',  ( 0.0000000000000000000, 0.0000000000000000000, 1.000000000000000000 ) ) ;
#147 = PLANE ( 'NONE',  #97 ) ;
#148 = DIRECTION ( 'NONE',  ( -0.04121968119370900100, 0.1401469160586111500, 0.9892723486490206900 ) ) ;
#149 = CARTESIAN_POINT ( 'NONE',  ( 21.00000000000000000, -42.84834845995926100, 1.000000000000000900 ) ) ;
#150 = CARTESIAN_POINT ( 'NONE',  ( 20.99999999999999600, 39.75000000000000000, 30.00000000000000000 ) ) ;
#151 = CARTESIAN_POINT ( 'NONE',  ( -22.25000000000001400, 44.00000000000001400, 0.0000000000000000000 ) ) ;
#152 = DIRECTION ( 'NONE',  ( 0.04121968119370945900, -0.1401469160586116000, 0.9892723486490205800 ) ) ;
#153 = PLANE ( 'NONE',  #99 ) ;
#154 = DIRECTION ( 'NONE',  ( -0.9991330730923520000, -8.720601748519014100E-017, -0.04163054471218092400 ) ) ;
#155 = PLANE ( 'NONE',  #98 ) ;
#156 = CARTESIAN_POINT ( 'NONE',  ( -22.25000000000001400, 44.00000000000001400, 0.0000000000000000000 ) ) ;
#157 = DIRECTION ( 'NONE',  ( 1.971276677246371500E-016, -1.000000000000000000, 0.0000000000000000000 ) ) ;
#158 = SECURITY_CLASSIFICATION_LEVEL ( 'unclassified' ) ;
#159 = MECHANICAL_CONTEXT ( 'NONE', #229, 'mechanical' ) ;
#160 = DIRECTION ( 'NONE',  ( 0.0000000000000000000, 0.1402661271484178500, 0.9901138386947148100 ) ) ;
#161 = DIRECTION ( 'NONE',  ( 0.9991330730923520000, 1.308090262277852400E-016, -0.04163054471218139600 ) ) ;
#162 = DIRECTION ( 'NONE',  ( 0.9991330730923520000, 1.308090262277852400E-016, -0.04163054471218139600 ) ) ;
#163 = CARTESIAN_POINT ( 'NONE',  ( 21.00000000000000000, -38.74001512662592700, 30.00000000000000000 ) ) ;
#164 = CARTESIAN_POINT ( 'NONE',  ( -22.24999999999999600, -44.00000000000000000, 0.0000000000000000000 ) ) ;
#165 = PERSON_AND_ORGANIZATION_ROLE ( 'design_owner' ) ;
#166 = CARTESIAN_POINT ( 'NONE',  ( -22.24999999999999600, -44.00000000000000000, 1.000000000000000000 ) ) ;
#167 = DIRECTION ( 'NONE',  ( 1.000000000000000000, -1.652117596168388000E-016, 0.0000000000000000000 ) ) ;
#168 = DIRECTION ( 'NONE',  ( 1.000000000000000000, 0.0000000000000000000, -0.0000000000000000000 ) ) ;
#169 = APPLICATION_CONTEXT ( 'configuration controlled 3d designs of mechanical parts and assemblies' ) ;
#170 = DIRECTION ( 'NONE',  ( -0.04163054471218138900, 0.0000000000000000000, -0.9991330730923518900 ) ) ;
#171 = CARTESIAN_POINT ( 'NONE',  ( -21.20746565421130500, -39.74999999999998600, 1.000000000000000900 ) ) ;
#172 = DIRECTION ( 'NONE',  ( 0.04121968119370922300, 0.1401469160586113800, 0.9892723486490205800 ) ) ;
#173 = DIRECTION ( 'NONE',  ( 0.0000000000000000000, -0.9901138386947148100, -0.1402661271484182700 ) ) ;
#174 = DIRECTION ( 'NONE',  ( 0.0000000000000000000, 0.1402661271484182700, -0.9901138386947148100 ) ) ;
#175 = DIRECTION ( 'NONE',  ( 1.000000000000000000, 0.0000000000000000000, 0.0000000000000000000 ) ) ;
#176 = PLANE ( 'NONE',  #88 ) ;
#177 = DIRECTION ( 'NONE',  ( -0.04163054471218092400, 0.0000000000000000000, 0.9991330730923520000 ) ) ;
#178 = CARTESIAN_POINT ( 'NONE',  ( 20.99999999999999600, 39.75000000000000000, 30.00000000000000000 ) ) ;
#179 = CARTESIAN_POINT ( 'NONE',  ( -20.99999999999999300, -39.74999999999998600, 30.00000000000000000 ) ) ;
#180 = CARTESIAN_POINT ( 'NONE',  ( -21.00000000000000400, 42.84834845995927600, 1.000000000000000900 ) ) ;
#181 = CARTESIAN_POINT ( 'NONE',  ( -22.24999999999999600, -44.00000000000000000, 0.0000000000000000000 ) ) ;
#182 = CARTESIAN_POINT ( 'NONE',  ( -22.25000000000001400, 44.00000000000001400, 0.0000000000000000000 ) ) ;
#183 = DIRECTION ( 'NONE',  ( 1.635784495117367600E-016, 0.9901138386947149200, -0.1402661271484178800 ) ) ;
#184 = DIRECTION ( 'NONE',  ( 1.309225264888156900E-016, -1.000000000000000000, 0.0000000000000000000 ) ) ;
#185 = DIRECTION ( 'NONE',  ( -8.728168432587710400E-017, 1.000000000000000000, -0.0000000000000000000 ) ) ;
#186 = DIRECTION ( 'NONE',  ( 1.000000000000000000, -1.652117596168388200E-016, 0.0000000000000000000 ) ) ;
#187 = CARTESIAN_POINT ( 'NONE',  ( -19.99913232087798000, 38.74001512662592700, 30.00000000000000000 ) ) ;
#188 = CARTESIAN_POINT ( 'NONE',  ( -19.99913232087796900, -38.74001512662592000, 30.00000000000000000 ) ) ;
#189 = CARTESIAN_POINT ( 'NONE',  ( 22.25000000000000000, -44.00000000000000000, 0.0000000000000000000 ) ) ;
#190 = PLANE ( 'NONE',  #87 ) ;
#191 = DIRECTION ( 'NONE',  ( -1.000000000000000000, -0.0000000000000000000, -0.0000000000000000000 ) ) ;
#192 = APPLICATION_PROTOCOL_DEFINITION ( 'international standard', 'config_control_design', 1994, #229 ) ;
#193 = CARTESIAN_POINT ( 'NONE',  ( 19.99913232087797300, 38.74001512662592700, 30.00000000000000000 ) ) ;
#194 = DIRECTION ( 'NONE',  ( 0.0000000000000000000, 0.0000000000000000000, 1.000000000000000000 ) ) ;
#195 = PLANE ( 'NONE',  #86 ) ;
#196 = DIRECTION ( 'NONE',  ( 1.000000000000000000, 0.0000000000000000000, 0.0000000000000000000 ) ) ;
#197 = DIRECTION ( 'NONE',  ( -0.9991330730923520000, -8.720601748519014100E-017, -0.04163054471218092400 ) ) ;
#198 = CARTESIAN_POINT ( 'NONE',  ( 21.20746565421129400, 42.84834845995927600, 1.000000000000000000 ) ) ;
#199 = CARTESIAN_POINT ( 'NONE',  ( 22.24999999999998600, 44.00000000000001400, 0.0000000000000000000 ) ) ;
#200 = CARTESIAN_POINT ( 'NONE',  ( -21.20746565421130500, -42.84834845995925400, 1.000000000000000000 ) ) ;
#201 = CARTESIAN_POINT ( 'NONE',  ( -21.00000000000000400, 39.75000000000000000, 30.00000000000000000 ) ) ;
#202 = PLANE ( 'NONE',  #102 ) ;
#203 = CARTESIAN_POINT ( 'NONE',  ( -22.24999999999999600, -44.00000000000000000, 0.0000000000000000000 ) ) ;
#204 =( LENGTH_UNIT ( ) NAMED_UNIT ( * ) SI_UNIT ( .MILLI., .METRE. ) );
#205 = DIRECTION ( 'NONE',  ( 0.0000000000000000000, 0.1402661271484178500, 0.9901138386947148100 ) ) ;
#206 = CARTESIAN_POINT ( 'NONE',  ( -20.99999999999999300, -39.74999999999999300, 30.00000000000000000 ) ) ;
#207 = CARTESIAN_POINT ( 'NONE',  ( 21.00000000000000000, -39.75000000000000000, 30.00000000000000000 ) ) ;
#208 = DIRECTION ( 'NONE',  ( 1.000000000000000000, 0.0000000000000000000, 0.0000000000000000000 ) ) ;
#209 = DATE_TIME_ROLE ( 'creation_date' ) ;
#210 = CARTESIAN_POINT ( 'NONE',  ( 19.99913232087798000, -38.74001512662592700, 30.00000000000000000 ) ) ;
#211 = DIRECTION ( 'NONE',  ( -1.000000000000000000, 0.0000000000000000000, 0.0000000000000000000 ) ) ;
#212 = CARTESIAN_POINT ( 'NONE',  ( -20.99999999999999300, -39.74999999999998600, 30.00000000000000000 ) ) ;
#213 = CARTESIAN_POINT ( 'NONE',  ( -20.00086692690764400, -39.74999999999998600, 29.95836945528781600 ) ) ;
#214 = APPLICATION_PROTOCOL_DEFINITION ( 'international standard', 'config_control_design', 1994, #169 ) ;
#215 = CARTESIAN_POINT ( 'NONE',  ( -21.00000000000000400, 39.75000000000000000, 30.00000000000000000 ) ) ;
#216 = DIRECTION ( 'NONE',  ( 1.309225264888156600E-016, -1.000000000000000000, 0.0000000000000000000 ) ) ;
#217 = CARTESIAN_POINT ( 'NONE',  ( 21.00000000000000000, -39.75000000000000000, 30.00000000000000000 ) ) ;
#218 = PERSON_AND_ORGANIZATION_ROLE ( 'creator' ) ;
#219 = CARTESIAN_POINT ( 'NONE',  ( -21.00000000000000400, 39.75000000000000000, 30.00000000000000000 ) ) ;
#220 = DIRECTION ( 'NONE',  ( 0.0000000000000000000, 0.1402661271484182700, -0.9901138386947148100 ) ) ;
#221 = PERSON_AND_ORGANIZATION_ROLE ( 'creator' ) ;
#222 = CARTESIAN_POINT ( 'NONE',  ( -21.20746565421131500, 42.84834845995927600, 1.000000000000000000 ) ) ;
#223 = DIRECTION ( 'NONE',  ( 0.0000000000000000000, -0.9901138386947148100, -0.1402661271484182700 ) ) ;
#224 = PERSON_AND_ORGANIZATION_ROLE ( 'design_supplier' ) ;
#225 = PERSON_AND_ORGANIZATION_ROLE ( 'classification_officer' ) ;
#226 = CARTESIAN_POINT ( 'NONE',  ( 22.24999999999998600, 44.00000000000001400, 0.0000000000000000000 ) ) ;
#227 = DIRECTION ( 'NONE',  ( -0.04163054471218092400, 0.0000000000000000000, 0.9991330730923520000 ) ) ;
#228 = CARTESIAN_POINT ( 'NONE',  ( -21.00000000000000400, 38.75988616130528900, 29.85973387285158200 ) ) ;
#229 = APPLICATION_CONTEXT ( 'configuration controlled 3d designs of mechanical parts and assemblies' ) ;
#230 =( NAMED_UNIT ( * ) PLANE_ANGLE_UNIT ( ) SI_UNIT ( $, .RADIAN. ) );
#231 = PLANE ( 'NONE',  #100 ) ;
#232 = CARTESIAN_POINT ( 'NONE',  ( 21.00000000000000000, -38.75988616130528900, 29.85973387285158200 ) ) ;
#233 = DIRECTION ( 'NONE',  ( -0.04163054471218138900, 0.0000000000000000000, -0.9991330730923518900 ) ) ;
#234 = PLANE ( 'NONE',  #96 ) ;
#235 = DIRECTION ( 'NONE',  ( -0.0000000000000000000, 0.0000000000000000000, 1.000000000000000000 ) ) ;
#236 = CARTESIAN_POINT ( 'NONE',  ( 21.20746565421130100, -42.84834845995926100, 1.000000000000000000 ) ) ;
#237 = CARTESIAN_POINT ( 'NONE',  ( 0.0000000000000000000, 0.0000000000000000000, 0.0000000000000000000 ) ) ;
#238 = UNCERTAINTY_MEASURE_WITH_UNIT (LENGTH_MEASURE( 1.000000000000000100E-005 ), #204, 'distance_accuracy_value', 'NONE');
#239 = MANIFOLD_SOLID_BREP ( 'Svuota1', #351 ) ;
#240 = ADVANCED_BREP_SHAPE_REPRESENTATION ( '¦ðóûº°úð ªþ¨¡õòð  BPO_BPO4182', ( #239, #91 ), #89 ) ;
#241 = ADVANCED_FACE ( 'NONE', ( #261 ), #234, .T. ) ;
#242 = ADVANCED_FACE ( 'NONE', ( #378 ), #147, .T. ) ;
#243 = ADVANCED_FACE ( 'NONE', ( #253 ), #155, .F. ) ;
#244 = ADVANCED_FACE ( 'NONE', ( #33, #47 ), #153, .T. ) ;
#245 = ADVANCED_FACE ( 'NONE', ( #59 ), #231, .F. ) ;
#246 = ADVANCED_FACE ( 'NONE', ( #29 ), #116, .T. ) ;
#247 = ADVANCED_FACE ( 'NONE', ( #30 ), #202, .F. ) ;
#248 = ADVANCED_FACE ( 'NONE', ( #28 ), #195, .F. ) ;
#249 = ADVANCED_FACE ( 'NONE', ( #27 ), #190, .F. ) ;
#250 = ADVANCED_FACE ( 'NONE', ( #69 ), #176, .T. ) ;
#251 = ADVANCED_FACE ( 'NONE', ( #31 ), #117, .T. ) ;
#252 = VECTOR ( 'NONE', #157, 1000.000000000000000 ) ;
#253 = FACE_OUTER_BOUND ( 'NONE', #326, .T. ) ;
#254 = VECTOR ( 'NONE', #191, 1000.000000000000000 ) ;
#255 = LINE ( 'NONE', #151, #252 ) ;
#256 = VECTOR ( 'NONE', #185, 1000.000000000000000 ) ;
#257 = LINE ( 'NONE', #215, #254 ) ;
#258 = VECTOR ( 'NONE', #167, 1000.000000000000000 ) ;
#259 = LINE ( 'NONE', #110, #256 ) ;
#260 = VECTOR ( 'NONE', #216, 1000.000000000000000 ) ;
#261 = FACE_OUTER_BOUND ( 'NONE', #361, .T. ) ;
#262 = VECTOR ( 'NONE', #121, 1000.000000000000100 ) ;
#263 = LINE ( 'NONE', #126, #260 ) ;
#264 = VECTOR ( 'NONE', #124, 1000.000000000000200 ) ;
#265 = LINE ( 'NONE', #122, #262 ) ;
#266 = VECTOR ( 'NONE', #120, 1000.000000000000200 ) ;
#267 = LINE ( 'NONE', #119, #264 ) ;
#268 = VECTOR ( 'NONE', #111, 1000.000000000000100 ) ;
#269 = LINE ( 'NONE', #113, #266 ) ;
#270 = VECTOR ( 'NONE', #211, 1000.000000000000000 ) ;
#271 = LINE ( 'NONE', #112, #268 ) ;
#272 = VECTOR ( 'NONE', #140, 1000.000000000000000 ) ;
#273 = LINE ( 'NONE', #129, #258 ) ;
#274 = VECTOR ( 'NONE', #133, 1000.000000000000000 ) ;
#275 = LINE ( 'NONE', #180, #270 ) ;
#276 = VECTOR ( 'NONE', #186, 1000.000000000000000 ) ;
#277 = LINE ( 'NONE', #135, #272 ) ;
#278 = VECTOR ( 'NONE', #114, 1000.000000000000000 ) ;
#279 = LINE ( 'NONE', #132, #274 ) ;
#280 = VECTOR ( 'NONE', #134, 1000.000000000000000 ) ;
#281 = LINE ( 'NONE', #136, #278 ) ;
#282 = VECTOR ( 'NONE', #130, 1000.000000000000000 ) ;
#283 = LINE ( 'NONE', #131, #280 ) ;
#284 = VECTOR ( 'NONE', #184, 1000.000000000000000 ) ;
#285 = LINE ( 'NONE', #163, #276 ) ;
#286 = VECTOR ( 'NONE', #172, 1000.000000000000200 ) ;
#287 = LINE ( 'NONE', #149, #282 ) ;
#288 = VECTOR ( 'NONE', #148, 1000.000000000000100 ) ;
#289 = LINE ( 'NONE', #164, #286 ) ;
#290 = VECTOR ( 'NONE', #137, 1000.000000000000200 ) ;
#291 = LINE ( 'NONE', #128, #288 ) ;
#292 = VECTOR ( 'NONE', #152, 1000.000000000000000 ) ;
#293 = LINE ( 'NONE', #226, #290 ) ;
#294 = VECTOR ( 'NONE', #208, 1000.000000000000000 ) ;
#295 = LINE ( 'NONE', #171, #284 ) ;
#296 = VECTOR ( 'NONE', #145, 1000.000000000000000 ) ;
#297 = LINE ( 'NONE', #182, #292 ) ;
#298 = VECTOR ( 'NONE', #143, 1000.000000000000000 ) ;
#299 = LINE ( 'NONE', #156, #298 ) ;
#300 = LINE ( 'NONE', #181, #294 ) ;
#301 = ORIENTED_EDGE ( 'NONE', *, *, #22, .T. ) ;
#302 = ORIENTED_EDGE ( 'NONE', *, *, #23, .T. ) ;
#303 = ORIENTED_EDGE ( 'NONE', *, *, #24, .F. ) ;
#304 = ORIENTED_EDGE ( 'NONE', *, *, #1, .F. ) ;
#305 = ORIENTED_EDGE ( 'NONE', *, *, #9, .F. ) ;
#306 = ORIENTED_EDGE ( 'NONE', *, *, #2, .F. ) ;
#307 = ORIENTED_EDGE ( 'NONE', *, *, #3, .F. ) ;
#308 = ORIENTED_EDGE ( 'NONE', *, *, #21, .T. ) ;
#309 = ORIENTED_EDGE ( 'NONE', *, *, #4, .T. ) ;
#310 = ORIENTED_EDGE ( 'NONE', *, *, #23, .F. ) ;
#311 = ORIENTED_EDGE ( 'NONE', *, *, #5, .F. ) ;
#312 = ORIENTED_EDGE ( 'NONE', *, *, #18, .F. ) ;
#313 = ORIENTED_EDGE ( 'NONE', *, *, #1, .T. ) ;
#314 = ORIENTED_EDGE ( 'NONE', *, *, #13, .T. ) ;
#315 = ORIENTED_EDGE ( 'NONE', *, *, #5, .T. ) ;
#316 = ORIENTED_EDGE ( 'NONE', *, *, #12, .F. ) ;
#317 = ORIENTED_EDGE ( 'NONE', *, *, #22, .F. ) ;
#318 = ORIENTED_EDGE ( 'NONE', *, *, #6, .F. ) ;
#319 = ORIENTED_EDGE ( 'NONE', *, *, #2, .T. ) ;
#320 = ORIENTED_EDGE ( 'NONE', *, *, #7, .T. ) ;
#321 = ORIENTED_EDGE ( 'NONE', *, *, #20, .F. ) ;
#322 = ORIENTED_EDGE ( 'NONE', *, *, #8, .F. ) ;
#323 = ORIENTED_EDGE ( 'NONE', *, *, #4, .F. ) ;
#324 = ORIENTED_EDGE ( 'NONE', *, *, #6, .T. ) ;
#325 = ORIENTED_EDGE ( 'NONE', *, *, #10, .F. ) ;
#326 = EDGE_LOOP ( 'NONE', ( #320, #321, #323, #336 ) ) ;
#327 = VERTEX_POINT ( 'NONE', #189 ) ;
#328 = ORIENTED_EDGE ( 'NONE', *, *, #12, .T. ) ;
#329 = ORIENTED_EDGE ( 'NONE', *, *, #16, .F. ) ;
#330 = EDGE_LOOP ( 'NONE', ( #356, #322, #355, #352 ) ) ;
#331 = VERTEX_POINT ( 'NONE', #187 ) ;
#332 = ORIENTED_EDGE ( 'NONE', *, *, #7, .F. ) ;
#333 = ORIENTED_EDGE ( 'NONE', *, *, #15, .F. ) ;
#334 = EDGE_LOOP ( 'NONE', ( #371, #364, #367, #316 ) ) ;
#335 = VERTEX_POINT ( 'NONE', #236 ) ;
#336 = ORIENTED_EDGE ( 'NONE', *, *, #24, .T. ) ;
#337 = ORIENTED_EDGE ( 'NONE', *, *, #10, .T. ) ;
#338 = EDGE_LOOP ( 'NONE', ( #329, #333, #360, #353 ) ) ;
#339 = VERTEX_POINT ( 'NONE', #188 ) ;
#340 = ORIENTED_EDGE ( 'NONE', *, *, #18, .T. ) ;
#341 = ORIENTED_EDGE ( 'NONE', *, *, #20, .T. ) ;
#342 = EDGE_LOOP ( 'NONE', ( #348, #366, #337, #345 ) ) ;
#343 = VERTEX_POINT ( 'NONE', #222 ) ;
#344 = ORIENTED_EDGE ( 'NONE', *, *, #21, .F. ) ;
#345 = ORIENTED_EDGE ( 'NONE', *, *, #15, .T. ) ;
#346 = EDGE_LOOP ( 'NONE', ( #324, #344, #332, #363 ) ) ;
#347 = VERTEX_POINT ( 'NONE', #198 ) ;
#348 = ORIENTED_EDGE ( 'NONE', *, *, #8, .T. ) ;
#349 = ORIENTED_EDGE ( 'NONE', *, *, #17, .F. ) ;
#350 = VERTEX_POINT ( 'NONE', #193 ) ;
#351 = CLOSED_SHELL ( 'NONE', ( #244, #248, #245, #249, #243, #247, #242, #251, #241, #250, #246 ) ) ;
#352 = ORIENTED_EDGE ( 'NONE', *, *, #11, .T. ) ;
#353 = ORIENTED_EDGE ( 'NONE', *, *, #14, .T. ) ;
#354 = EDGE_LOOP ( 'NONE', ( #312, #305, #359, #328 ) ) ;
#355 = ORIENTED_EDGE ( 'NONE', *, *, #16, .T. ) ;
#356 = ORIENTED_EDGE ( 'NONE', *, *, #19, .F. ) ;
#357 = EDGE_LOOP ( 'NONE', ( #303, #304, #306, #307 ) ) ;
#358 = VERTEX_POINT ( 'NONE', #179 ) ;
#359 = ORIENTED_EDGE ( 'NONE', *, *, #19, .T. ) ;
#360 = ORIENTED_EDGE ( 'NONE', *, *, #17, .T. ) ;
#361 = EDGE_LOOP ( 'NONE', ( #349, #325, #340, #314 ) ) ;
#362 = VERTEX_POINT ( 'NONE', #199 ) ;
#363 = ORIENTED_EDGE ( 'NONE', *, *, #3, .T. ) ;
#364 = ORIENTED_EDGE ( 'NONE', *, *, #14, .F. ) ;
#365 = VERTEX_POINT ( 'NONE', #201 ) ;
#366 = ORIENTED_EDGE ( 'NONE', *, *, #9, .T. ) ;
#367 = ORIENTED_EDGE ( 'NONE', *, *, #13, .F. ) ;
#368 = VERTEX_POINT ( 'NONE', #118 ) ;
#369 = EDGE_LOOP ( 'NONE', ( #341, #308, #301, #302 ) ) ;
#370 = EDGE_LOOP ( 'NONE', ( #309, #310, #311, #313 ) ) ;
#371 = ORIENTED_EDGE ( 'NONE', *, *, #11, .F. ) ;
#372 = VERTEX_POINT ( 'NONE', #150 ) ;
#373 = VERTEX_POINT ( 'NONE', #210 ) ;
#374 = EDGE_LOOP ( 'NONE', ( #315, #317, #318, #319 ) ) ;
#375 = LINE ( 'NONE', #142, #296 ) ;
#376 = VERTEX_POINT ( 'NONE', #203 ) ;
#377 = VERTEX_POINT ( 'NONE', #200 ) ;
#378 = FACE_OUTER_BOUND ( 'NONE', #342, .T. ) ;
#379 = VERTEX_POINT ( 'NONE', #207 ) ;
ENDSEC;
END-ISO-10303-21;
