ISO-10303-21;
HEADER;
FILE_DESCRIPTION (( 'STEP AP203' ),
    '1' );
FILE_NAME ('CTR10-032-K02-100-1 Òðóáà ãëàäêàÿ æåñòêàÿ ÏÍÄ d32 ÈÝÊ ÷åðíàÿ (100ì).STEP',
    '2016-05-17T06:41:01',
    ( '' ),
    ( '' ),
    'SwSTEP 2.0',
    'SolidWorks 2014',
    '' );
FILE_SCHEMA (( 'CONFIG_CONTROL_DESIGN' ));
ENDSEC;

DATA;
#1 = AXIS2_PLACEMENT_3D ( 'NONE', #111, #168, #50 ) ;
#2 = FACE_OUTER_BOUND ( 'NONE', #109, .T. ) ;
#3 = VERTEX_POINT ( 'NONE', #120 ) ;
#4 =( LENGTH_UNIT ( ) NAMED_UNIT ( * ) SI_UNIT ( .MILLI., .METRE. ) );
#5 = EDGE_LOOP ( 'NONE', ( #11 ) ) ;
#6 =( GEOMETRIC_REPRESENTATION_CONTEXT ( 3 ) GLOBAL_UNCERTAINTY_ASSIGNED_CONTEXT ( ( #78 ) ) GLOBAL_UNIT_ASSIGNED_CONTEXT ( ( #4, #156, #76 ) ) REPRESENTATION_CONTEXT ( 'NONE', 'WORKASPACE' ) );
#7 = CARTESIAN_POINT ( 'NONE',  ( 0.0000000000000000000, 0.0000000000000000000, 2000.000000000000000 ) ) ;
#8 = CALENDAR_DATE ( 2016, 17, 5 ) ;
#9 = PERSON_AND_ORGANIZATION_ROLE ( 'creator' ) ;
#10 = DATE_AND_TIME ( #64, #107 ) ;
#11 = ORIENTED_EDGE ( 'NONE', *, *, #62, .T. ) ;
#12 = DIRECTION ( 'NONE',  ( 1.000000000000000000, 0.0000000000000000000, -0.0000000000000000000 ) ) ;
#13 = ADVANCED_FACE ( 'NONE', ( #2, #155 ), #165, .T. ) ;
#14 = EDGE_LOOP ( 'NONE', ( #108 ) ) ;
#15 = CIRCLE ( 'NONE', #41, 16.00000000000000000 ) ;
#16 = AXIS2_PLACEMENT_3D ( 'NONE', #98, #114, #12 ) ;
#17 = APPROVAL_ROLE ( '' ) ;
#18 = CARTESIAN_POINT ( 'NONE',  ( 0.0000000000000000000, 0.0000000000000000000, 0.0000000000000000000 ) ) ;
#19 = APPROVAL_PERSON_ORGANIZATION ( #96, #39, #166 ) ;
#20 = APPROVAL_STATUS ( 'not_yet_approved' ) ;
#21 = AXIS2_PLACEMENT_3D ( 'NONE', #83, #61, #38 ) ;
#22 = ORIENTED_EDGE ( 'NONE', *, *, #56, .T. ) ;
#23 = CARTESIAN_POINT ( 'NONE',  ( 0.0000000000000000000, 0.0000000000000000000, 2000.000000000000000 ) ) ;
#24 = DIRECTION ( 'NONE',  ( 1.000000000000000000, 0.0000000000000000000, 0.0000000000000000000 ) ) ;
#25 = FACE_BOUND ( 'NONE', #123, .T. ) ;
#26 = PERSON_AND_ORGANIZATION ( #113, #141 ) ;
#27 = PERSON_AND_ORGANIZATION ( #113, #141 ) ;
#28 = DIRECTION ( 'NONE',  ( 0.0000000000000000000, 0.0000000000000000000, 1.000000000000000000 ) ) ;
#29 = FACE_OUTER_BOUND ( 'NONE', #85, .T. ) ;
#30 = APPROVAL_DATE_TIME ( #10, #63 ) ;
#31 = EDGE_LOOP ( 'NONE', ( #51 ) ) ;
#32 = LOCAL_TIME ( 9, 41, 1.000000000000000000, #93 ) ;
#33 = AXIS2_PLACEMENT_3D ( 'NONE', #23, #67, #150 ) ;
#34 = AXIS2_PLACEMENT_3D ( 'NONE', #169, #28, #94 ) ;
#35 = APPROVAL_PERSON_ORGANIZATION ( #27, #63, #17 ) ;
#36 = AXIS2_PLACEMENT_3D ( 'NONE', #7, #73, #128 ) ;
#37 = ORIENTED_EDGE ( 'NONE', *, *, #52, .F. ) ;
#38 = DIRECTION ( 'NONE',  ( -1.000000000000000000, 0.0000000000000000000, 0.0000000000000000000 ) ) ;
#39 = APPROVAL ( #157, 'UNSPECIFIED' ) ;
#40 = CC_DESIGN_PERSON_AND_ORGANIZATION_ASSIGNMENT ( #116, #9, ( #124 ) ) ;
#41 = AXIS2_PLACEMENT_3D ( 'NONE', #18, #77, #24 ) ;
#42 = APPROVAL_DATE_TIME ( #44, #86 ) ;
#43 = PRODUCT_DEFINITION ( 'UNKNOWN', '', #124, #100 ) ;
#44 = DATE_AND_TIME ( #74, #32 ) ;
#45 = AXIS2_PLACEMENT_3D ( 'NONE', #79, #91, #115 ) ;
#46 = CC_DESIGN_APPROVAL ( #63, ( #57 ) ) ;
#47 = FACE_OUTER_BOUND ( 'NONE', #14, .T. ) ;
#48 = FACE_BOUND ( 'NONE', #31, .T. ) ;
#49 = PRODUCT ( 'CTR10-032-K02-100-1 Òðóáà ãëàäêàÿ æåñòêàÿ ÏÍÄ d32 ÈÝÊ ÷åðíàÿ (100ì)', 'CTR10-032-K02-100-1 Òðóáà ãëàäêàÿ æåñòêàÿ ÏÍÄ d32 ÈÝÊ ÷åðíàÿ (100ì)', '', ( #60 ) ) ;
#50 = DIRECTION ( 'NONE',  ( 1.000000000000000000, 0.0000000000000000000, -0.0000000000000000000 ) ) ;
#51 = ORIENTED_EDGE ( 'NONE', *, *, #62, .F. ) ;
#52 = EDGE_CURVE ( 'NONE', #87, #87, #15, .T. ) ;
#53 = CALENDAR_DATE ( 2016, 17, 5 ) ;
#54 = APPROVAL_DATE_TIME ( #126, #39 ) ;
#55 = EDGE_CURVE ( 'NONE', #134, #134, #59, .T. ) ;
#56 = EDGE_CURVE ( 'NONE', #95, #95, #159, .T. ) ;
#57 = SECURITY_CLASSIFICATION ( '', '', #137 ) ;
#58 = APPLICATION_PROTOCOL_DEFINITION ( 'international standard', 'config_control_design', 1994, #163 ) ;
#59 = CIRCLE ( 'NONE', #45, 16.00000000000000000 ) ;
#60 = MECHANICAL_CONTEXT ( 'NONE', #158, 'mechanical' ) ;
#61 = DIRECTION ( 'NONE',  ( -0.0000000000000000000, -0.0000000000000000000, -1.000000000000000000 ) ) ;
#62 = EDGE_CURVE ( 'NONE', #3, #3, #132, .T. ) ;
#63 = APPROVAL ( #20, 'UNSPECIFIED' ) ;
#64 = CALENDAR_DATE ( 2016, 17, 5 ) ;
#65 = ADVANCED_BREP_SHAPE_REPRESENTATION ( 'CTR10-032-K02-100-1 T¨ºñð óûðôúð  öõ¸ªúð  ¦=- d32 L¦¦ ¢õ¨ýð  (100ü)', ( #127, #131 ), #6 ) ;
#66 = ORIENTED_EDGE ( 'NONE', *, *, #52, .T. ) ;
#67 = DIRECTION ( 'NONE',  ( 0.0000000000000000000, 0.0000000000000000000, 1.000000000000000000 ) ) ;
#68 = CARTESIAN_POINT ( 'NONE',  ( 16.00000000000000000, 0.0000000000000000000, 0.0000000000000000000 ) ) ;
#69 = PERSON_AND_ORGANIZATION_ROLE ( 'design_supplier' ) ;
#70 = CARTESIAN_POINT ( 'NONE',  ( 16.00000000000000000, 0.0000000000000000000, 2000.000000000000000 ) ) ;
#71 = COORDINATED_UNIVERSAL_TIME_OFFSET ( 3, 0, .AHEAD. ) ;
#72 = LOCAL_TIME ( 9, 41, 1.000000000000000000, #97 ) ;
#73 = DIRECTION ( 'NONE',  ( -0.0000000000000000000, -0.0000000000000000000, -1.000000000000000000 ) ) ;
#74 = CALENDAR_DATE ( 2016, 17, 5 ) ;
#75 = PRODUCT_RELATED_PRODUCT_CATEGORY ( 'detail', '', ( #49 ) ) ;
#76 =( NAMED_UNIT ( * ) SI_UNIT ( $, .STERADIAN. ) SOLID_ANGLE_UNIT ( ) );
#77 = DIRECTION ( 'NONE',  ( 0.0000000000000000000, 0.0000000000000000000, 1.000000000000000000 ) ) ;
#78 = UNCERTAINTY_MEASURE_WITH_UNIT (LENGTH_MEASURE( 1.000000000000000100E-005 ), #4, 'distance_accuracy_value', 'NONE');
#79 = CARTESIAN_POINT ( 'NONE',  ( 0.0000000000000000000, 0.0000000000000000000, 2000.000000000000000 ) ) ;
#80 = ADVANCED_FACE ( 'NONE', ( #82, #47 ), #129, .F. ) ;
#81 = PERSON_AND_ORGANIZATION ( #113, #141 ) ;
#82 = FACE_OUTER_BOUND ( 'NONE', #5, .T. ) ;
#83 = CARTESIAN_POINT ( 'NONE',  ( 0.0000000000000000000, 0.0000000000000000000, 2000.000000000000000 ) ) ;
#84 = CC_DESIGN_DATE_AND_TIME_ASSIGNMENT ( #133, #121, ( #57 ) ) ;
#85 = EDGE_LOOP ( 'NONE', ( #143 ) ) ;
#86 = APPROVAL ( #148, 'UNSPECIFIED' ) ;
#87 = VERTEX_POINT ( 'NONE', #68 ) ;
#88 = CC_DESIGN_SECURITY_CLASSIFICATION ( #57, ( #124 ) ) ;
#89 = ADVANCED_FACE ( 'NONE', ( #29, #48 ), #144, .T. ) ;
#90 = CC_DESIGN_PERSON_AND_ORGANIZATION_ASSIGNMENT ( #26, #161, ( #49 ) ) ;
#91 = DIRECTION ( 'NONE',  ( 0.0000000000000000000, 0.0000000000000000000, 1.000000000000000000 ) ) ;
#92 = FACE_OUTER_BOUND ( 'NONE', #139, .T. ) ;
#93 = COORDINATED_UNIVERSAL_TIME_OFFSET ( 3, 0, .AHEAD. ) ;
#94 = DIRECTION ( 'NONE',  ( 1.000000000000000000, 0.0000000000000000000, 0.0000000000000000000 ) ) ;
#95 = VERTEX_POINT ( 'NONE', #152 ) ;
#96 = PERSON_AND_ORGANIZATION ( #113, #141 ) ;
#97 = COORDINATED_UNIVERSAL_TIME_OFFSET ( 3, 0, .AHEAD. ) ;
#98 = CARTESIAN_POINT ( 'NONE',  ( 0.0000000000000000000, 0.0000000000000000000, 2000.000000000000000 ) ) ;
#99 = CC_DESIGN_PERSON_AND_ORGANIZATION_ASSIGNMENT ( #81, #69, ( #124 ) ) ;
#100 = DESIGN_CONTEXT ( 'detailed design', #163, 'design' ) ;
#101 = APPLICATION_PROTOCOL_DEFINITION ( 'international standard', 'config_control_design', 1994, #158 ) ;
#102 = CC_DESIGN_PERSON_AND_ORGANIZATION_ASSIGNMENT ( #117, #151, ( #43 ) ) ;
#103 = EDGE_LOOP ( 'NONE', ( #66 ) ) ;
#104 = COORDINATED_UNIVERSAL_TIME_OFFSET ( 3, 0, .AHEAD. ) ;
#105 = DATE_AND_TIME ( #53, #135 ) ;
#106 = CC_DESIGN_APPROVAL ( #39, ( #43 ) ) ;
#107 = LOCAL_TIME ( 9, 41, 1.000000000000000000, #71 ) ;
#108 = ORIENTED_EDGE ( 'NONE', *, *, #56, .F. ) ;
#109 = EDGE_LOOP ( 'NONE', ( #138 ) ) ;
#110 = PERSON_AND_ORGANIZATION ( #113, #141 ) ;
#111 = CARTESIAN_POINT ( 'NONE',  ( 0.0000000000000000000, 0.0000000000000000000, 0.0000000000000000000 ) ) ;
#112 = CC_DESIGN_DATE_AND_TIME_ASSIGNMENT ( #105, #140, ( #43 ) ) ;
#113 = PERSON ( 'UNSPECIFIED', 'UNSPECIFIED', 'UNSPECIFIED', ('UNSPECIFIED'), ('UNSPECIFIED'), ('UNSPECIFIED') ) ;
#114 = DIRECTION ( 'NONE',  ( 0.0000000000000000000, 0.0000000000000000000, 1.000000000000000000 ) ) ;
#115 = DIRECTION ( 'NONE',  ( 1.000000000000000000, 0.0000000000000000000, 0.0000000000000000000 ) ) ;
#116 = PERSON_AND_ORGANIZATION ( #113, #141 ) ;
#117 = PERSON_AND_ORGANIZATION ( #113, #141 ) ;
#118 = APPROVAL_ROLE ( '' ) ;
#119 = APPROVAL_PERSON_ORGANIZATION ( #110, #86, #118 ) ;
#120 = CARTESIAN_POINT ( 'NONE',  ( 14.00000000000000000, 0.0000000000000000000, 2000.000000000000000 ) ) ;
#121 = DATE_TIME_ROLE ( 'classification_date' ) ;
#122 = PERSON_AND_ORGANIZATION_ROLE ( 'classification_officer' ) ;
#123 = EDGE_LOOP ( 'NONE', ( #22 ) ) ;
#124 = PRODUCT_DEFINITION_FORMATION_WITH_SPECIFIED_SOURCE ( 'ANY', '', #49, .NOT_KNOWN. ) ;
#125 = PRODUCT_DEFINITION_SHAPE ( 'NONE', 'NONE',  #43 ) ;
#126 = DATE_AND_TIME ( #8, #146 ) ;
#127 = MANIFOLD_SOLID_BREP ( 'Áîáûøêà-Âûòÿíóòü1', #160 ) ;
#128 = DIRECTION ( 'NONE',  ( -1.000000000000000000, 0.0000000000000000000, 0.0000000000000000000 ) ) ;
#129 = CYLINDRICAL_SURFACE ( 'NONE', #21, 14.00000000000000000 ) ;
#130 = CC_DESIGN_APPROVAL ( #86, ( #124 ) ) ;
#131 = AXIS2_PLACEMENT_3D ( 'NONE', #136, #145, #167 ) ;
#132 = CIRCLE ( 'NONE', #33, 14.00000000000000000 ) ;
#133 = DATE_AND_TIME ( #162, #72 ) ;
#134 = VERTEX_POINT ( 'NONE', #70 ) ;
#135 = LOCAL_TIME ( 9, 41, 1.000000000000000000, #142 ) ;
#136 = CARTESIAN_POINT ( 'NONE',  ( 0.0000000000000000000, 0.0000000000000000000, 0.0000000000000000000 ) ) ;
#137 = SECURITY_CLASSIFICATION_LEVEL ( 'unclassified' ) ;
#138 = ORIENTED_EDGE ( 'NONE', *, *, #55, .F. ) ;
#139 = EDGE_LOOP ( 'NONE', ( #37 ) ) ;
#140 = DATE_TIME_ROLE ( 'creation_date' ) ;
#141 = ORGANIZATION ( 'UNSPECIFIED', 'UNSPECIFIED', '' ) ;
#142 = COORDINATED_UNIVERSAL_TIME_OFFSET ( 3, 0, .AHEAD. ) ;
#143 = ORIENTED_EDGE ( 'NONE', *, *, #55, .T. ) ;
#144 = PLANE ( 'NONE',  #16 ) ;
#145 = DIRECTION ( 'NONE',  ( 0.0000000000000000000, 0.0000000000000000000, 1.000000000000000000 ) ) ;
#146 = LOCAL_TIME ( 9, 41, 1.000000000000000000, #104 ) ;
#147 = CC_DESIGN_PERSON_AND_ORGANIZATION_ASSIGNMENT ( #149, #122, ( #57 ) ) ;
#148 = APPROVAL_STATUS ( 'not_yet_approved' ) ;
#149 = PERSON_AND_ORGANIZATION ( #113, #141 ) ;
#150 = DIRECTION ( 'NONE',  ( 1.000000000000000000, 0.0000000000000000000, 0.0000000000000000000 ) ) ;
#151 = PERSON_AND_ORGANIZATION_ROLE ( 'creator' ) ;
#152 = CARTESIAN_POINT ( 'NONE',  ( 14.00000000000000000, 0.0000000000000000000, 0.0000000000000000000 ) ) ;
#153 = PLANE ( 'NONE',  #1 ) ;
#154 = ADVANCED_FACE ( 'NONE', ( #92, #25 ), #153, .F. ) ;
#155 = FACE_OUTER_BOUND ( 'NONE', #103, .T. ) ;
#156 =( NAMED_UNIT ( * ) PLANE_ANGLE_UNIT ( ) SI_UNIT ( $, .RADIAN. ) );
#157 = APPROVAL_STATUS ( 'not_yet_approved' ) ;
#158 = APPLICATION_CONTEXT ( 'configuration controlled 3d designs of mechanical parts and assemblies' ) ;
#159 = CIRCLE ( 'NONE', #34, 14.00000000000000000 ) ;
#160 = CLOSED_SHELL ( 'NONE', ( #89, #154, #13, #80 ) ) ;
#161 = PERSON_AND_ORGANIZATION_ROLE ( 'design_owner' ) ;
#162 = CALENDAR_DATE ( 2016, 17, 5 ) ;
#163 = APPLICATION_CONTEXT ( 'configuration controlled 3d designs of mechanical parts and assemblies' ) ;
#164 = SHAPE_DEFINITION_REPRESENTATION ( #125, #65 ) ;
#165 = CYLINDRICAL_SURFACE ( 'NONE', #36, 16.00000000000000000 ) ;
#166 = APPROVAL_ROLE ( '' ) ;
#167 = DIRECTION ( 'NONE',  ( 1.000000000000000000, 0.0000000000000000000, 0.0000000000000000000 ) ) ;
#168 = DIRECTION ( 'NONE',  ( 0.0000000000000000000, 0.0000000000000000000, 1.000000000000000000 ) ) ;
#169 = CARTESIAN_POINT ( 'NONE',  ( 0.0000000000000000000, 0.0000000000000000000, 0.0000000000000000000 ) ) ;
ENDSEC;
END-ISO-10303-21;
