ISO-10303-21;
HEADER;
FILE_DESCRIPTION (( 'STEP AP203' ),
    '1' );
FILE_NAME ('CLP1M-SH-6 Øàéáà ïëîñêàÿ M6.STEP',
    '2016-02-12T06:12:35',
    ( '' ),
    ( '' ),
    'SwSTEP 2.0',
    'SolidWorks 2014',
    '' );
FILE_SCHEMA (( 'CONFIG_CONTROL_DESIGN' ));
ENDSEC;

DATA;
#1 = CC_DESIGN_APPROVAL ( #38, ( #71 ) ) ;
#2 = ORIENTED_EDGE ( 'NONE', *, *, #114, .T. ) ;
#3 = ORIENTED_EDGE ( 'NONE', *, *, #86, .F. ) ;
#4 = CALENDAR_DATE ( 2016, 12, 2 ) ;
#5 = AXIS2_PLACEMENT_3D ( 'NONE', #96, #101, #88 ) ;
#6 = CC_DESIGN_DATE_AND_TIME_ASSIGNMENT ( #143, #34, ( #71 ) ) ;
#7 = SHAPE_DEFINITION_REPRESENTATION ( #169, #133 ) ;
#8 = APPROVAL ( #33, 'UNSPECIFIED' ) ;
#9 = AXIS2_PLACEMENT_3D ( 'NONE', #116, #125, #82 ) ;
#10 = CC_DESIGN_PERSON_AND_ORGANIZATION_ASSIGNMENT ( #85, #35, ( #71 ) ) ;
#11 = ADVANCED_FACE ( 'NONE', ( #130, #111 ), #84, .T. ) ;
#12 = LOCAL_TIME ( 9, 12, 35.00000000000000000, #161 ) ;
#13 = COORDINATED_UNIVERSAL_TIME_OFFSET ( 3, 0, .AHEAD. ) ;
#14 = AXIS2_PLACEMENT_3D ( 'NONE', #83, #98, #95 ) ;
#15 = CC_DESIGN_DATE_AND_TIME_ASSIGNMENT ( #32, #22, ( #46 ) ) ;
#16 = PRODUCT_DEFINITION_FORMATION_WITH_SPECIFIED_SOURCE ( 'ANY', '', #155, .NOT_KNOWN. ) ;
#17 = CYLINDRICAL_SURFACE ( 'NONE', #136, 6.000000000000000900 ) ;
#18 = EDGE_LOOP ( 'NONE', ( #139 ) ) ;
#19 = FACE_OUTER_BOUND ( 'NONE', #134, .T. ) ;
#20 = APPROVAL_ROLE ( '' ) ;
#21 = APPROVAL_STATUS ( 'not_yet_approved' ) ;
#22 = DATE_TIME_ROLE ( 'classification_date' ) ;
#23 = APPROVAL ( #21, 'UNSPECIFIED' ) ;
#24 = AXIS2_PLACEMENT_3D ( 'NONE', #81, #79, #78 ) ;
#25 = PERSON_AND_ORGANIZATION_ROLE ( 'classification_officer' ) ;
#26 = SECURITY_CLASSIFICATION_LEVEL ( 'unclassified' ) ;
#27 = PERSON_AND_ORGANIZATION_ROLE ( 'design_supplier' ) ;
#28 = PERSON_AND_ORGANIZATION_ROLE ( 'creator' ) ;
#29 = ADVANCED_FACE ( 'NONE', ( #132, #131 ), #137, .F. ) ;
#30 = APPROVAL_ROLE ( '' ) ;
#31 = CALENDAR_DATE ( 2016, 12, 2 ) ;
#32 = DATE_AND_TIME ( #129, #12 ) ;
#33 = APPROVAL_STATUS ( 'not_yet_approved' ) ;
#34 = DATE_TIME_ROLE ( 'creation_date' ) ;
#35 = PERSON_AND_ORGANIZATION_ROLE ( 'creator' ) ;
#36 = APPROVAL_ROLE ( '' ) ;
#37 = APPROVAL_STATUS ( 'not_yet_approved' ) ;
#38 = APPROVAL ( #37, 'UNSPECIFIED' ) ;
#39 = APPLICATION_PROTOCOL_DEFINITION ( 'international standard', 'config_control_design', 1994, #40 ) ;
#40 = APPLICATION_CONTEXT ( 'configuration controlled 3d designs of mechanical parts and assemblies' ) ;
#41 = PERSON_AND_ORGANIZATION_ROLE ( 'design_owner' ) ;
#42 = MECHANICAL_CONTEXT ( 'NONE', #47, 'mechanical' ) ;
#43 = APPLICATION_PROTOCOL_DEFINITION ( 'international standard', 'config_control_design', 1994, #47 ) ;
#44 = PERSON_AND_ORGANIZATION ( #100, #152 ) ;
#45 = DIRECTION ( 'NONE',  ( 1.000000000000000000, 0.0000000000000000000, 0.0000000000000000000 ) ) ;
#46 = SECURITY_CLASSIFICATION ( '', '', #26 ) ;
#47 = APPLICATION_CONTEXT ( 'configuration controlled 3d designs of mechanical parts and assemblies' ) ;
#48 =( NAMED_UNIT ( * ) SI_UNIT ( $, .STERADIAN. ) SOLID_ANGLE_UNIT ( ) );
#49 =( NAMED_UNIT ( * ) PLANE_ANGLE_UNIT ( ) SI_UNIT ( $, .RADIAN. ) );
#50 =( LENGTH_UNIT ( ) NAMED_UNIT ( * ) SI_UNIT ( .MILLI., .METRE. ) );
#51 = CIRCLE ( 'NONE', #9, 6.000000000000000900 ) ;
#52 = DIRECTION ( 'NONE',  ( 0.0000000000000000000, 0.0000000000000000000, 1.000000000000000000 ) ) ;
#53 = CARTESIAN_POINT ( 'NONE',  ( 6.000000000000000900, 0.0000000000000000000, 1.600000000000000100 ) ) ;
#54 = CARTESIAN_POINT ( 'NONE',  ( 6.000000000000000900, 0.0000000000000000000, 0.0000000000000000000 ) ) ;
#55 = ORIENTED_EDGE ( 'NONE', *, *, #121, .T. ) ;
#56 = CARTESIAN_POINT ( 'NONE',  ( 3.200000000000000200, 0.0000000000000000000, 0.0000000000000000000 ) ) ;
#57 = UNCERTAINTY_MEASURE_WITH_UNIT (LENGTH_MEASURE( 1.000000000000000100E-005 ), #50, 'distance_accuracy_value', 'NONE');
#58 = CARTESIAN_POINT ( 'NONE',  ( 0.0000000000000000000, 0.0000000000000000000, 0.0000000000000000000 ) ) ;
#59 = DIRECTION ( 'NONE',  ( 1.000000000000000000, 0.0000000000000000000, 0.0000000000000000000 ) ) ;
#60 = DIRECTION ( 'NONE',  ( 0.0000000000000000000, 0.0000000000000000000, 1.000000000000000000 ) ) ;
#61 = CC_DESIGN_APPROVAL ( #23, ( #46 ) ) ;
#62 = CARTESIAN_POINT ( 'NONE',  ( 0.0000000000000000000, 0.0000000000000000000, 1.600000000000000100 ) ) ;
#63 = APPROVAL_PERSON_ORGANIZATION ( #115, #8, #30 ) ;
#64 = COORDINATED_UNIVERSAL_TIME_OFFSET ( 3, 0, .AHEAD. ) ;
#65 = CARTESIAN_POINT ( 'NONE',  ( 0.0000000000000000000, 0.0000000000000000000, 1.600000000000000100 ) ) ;
#66 = DIRECTION ( 'NONE',  ( -1.000000000000000000, 0.0000000000000000000, 0.0000000000000000000 ) ) ;
#67 = CARTESIAN_POINT ( 'NONE',  ( 3.200000000000000200, 0.0000000000000000000, 1.600000000000000100 ) ) ;
#68 = DIRECTION ( 'NONE',  ( -0.0000000000000000000, -0.0000000000000000000, -1.000000000000000000 ) ) ;
#69 = DIRECTION ( 'NONE',  ( 1.000000000000000000, 0.0000000000000000000, -0.0000000000000000000 ) ) ;
#70 = DIRECTION ( 'NONE',  ( 0.0000000000000000000, 0.0000000000000000000, 1.000000000000000000 ) ) ;
#71 = PRODUCT_DEFINITION ( 'UNKNOWN', '', #16, #110 ) ;
#72 = DIRECTION ( 'NONE',  ( 1.000000000000000000, 0.0000000000000000000, 0.0000000000000000000 ) ) ;
#73 = VERTEX_POINT ( 'NONE', #67 ) ;
#74 = DIRECTION ( 'NONE',  ( 0.0000000000000000000, 0.0000000000000000000, 1.000000000000000000 ) ) ;
#75 = CARTESIAN_POINT ( 'NONE',  ( 0.0000000000000000000, 0.0000000000000000000, 1.600000000000000100 ) ) ;
#76 = CC_DESIGN_PERSON_AND_ORGANIZATION_ASSIGNMENT ( #103, #25, ( #46 ) ) ;
#77 = PLANE ( 'NONE',  #154 ) ;
#78 = DIRECTION ( 'NONE',  ( 1.000000000000000000, 0.0000000000000000000, 0.0000000000000000000 ) ) ;
#79 = DIRECTION ( 'NONE',  ( 0.0000000000000000000, 0.0000000000000000000, 1.000000000000000000 ) ) ;
#80 = CALENDAR_DATE ( 2016, 12, 2 ) ;
#81 = CARTESIAN_POINT ( 'NONE',  ( 0.0000000000000000000, 0.0000000000000000000, 0.0000000000000000000 ) ) ;
#82 = DIRECTION ( 'NONE',  ( 1.000000000000000000, 0.0000000000000000000, 0.0000000000000000000 ) ) ;
#83 = CARTESIAN_POINT ( 'NONE',  ( 0.0000000000000000000, 0.0000000000000000000, 1.600000000000000100 ) ) ;
#84 = PLANE ( 'NONE',  #14 ) ;
#85 = PERSON_AND_ORGANIZATION ( #100, #152 ) ;
#86 = EDGE_CURVE ( 'NONE', #124, #124, #51, .T. ) ;
#87 = LOCAL_TIME ( 9, 12, 35.00000000000000000, #13 ) ;
#88 = DIRECTION ( 'NONE',  ( -1.000000000000000000, 0.0000000000000000000, 0.0000000000000000000 ) ) ;
#89 = PRODUCT_RELATED_PRODUCT_CATEGORY ( 'detail', '', ( #155 ) ) ;
#90 = CC_DESIGN_PERSON_AND_ORGANIZATION_ASSIGNMENT ( #107, #41, ( #155 ) ) ;
#91 = CC_DESIGN_PERSON_AND_ORGANIZATION_ASSIGNMENT ( #140, #28, ( #16 ) ) ;
#92 = CARTESIAN_POINT ( 'NONE',  ( 0.0000000000000000000, 0.0000000000000000000, 0.0000000000000000000 ) ) ;
#93 = MANIFOLD_SOLID_BREP ( 'Âûòÿíóòü1', #106 ) ;
#94 = EDGE_LOOP ( 'NONE', ( #99 ) ) ;
#95 = DIRECTION ( 'NONE',  ( 1.000000000000000000, 0.0000000000000000000, -0.0000000000000000000 ) ) ;
#96 = CARTESIAN_POINT ( 'NONE',  ( 0.0000000000000000000, 0.0000000000000000000, 1.600000000000000100 ) ) ;
#97 = EDGE_CURVE ( 'NONE', #122, #122, #149, .T. ) ;
#98 = DIRECTION ( 'NONE',  ( 0.0000000000000000000, 0.0000000000000000000, 1.000000000000000000 ) ) ;
#99 = ORIENTED_EDGE ( 'NONE', *, *, #97, .T. ) ;
#100 = PERSON ( 'UNSPECIFIED', 'UNSPECIFIED', 'UNSPECIFIED', ('UNSPECIFIED'), ('UNSPECIFIED'), ('UNSPECIFIED') ) ;
#101 = DIRECTION ( 'NONE',  ( -0.0000000000000000000, -0.0000000000000000000, -1.000000000000000000 ) ) ;
#102 = CC_DESIGN_PERSON_AND_ORGANIZATION_ASSIGNMENT ( #44, #27, ( #16 ) ) ;
#103 = PERSON_AND_ORGANIZATION ( #100, #152 ) ;
#104 = VERTEX_POINT ( 'NONE', #53 ) ;
#105 = ORIENTED_EDGE ( 'NONE', *, *, #114, .F. ) ;
#106 = CLOSED_SHELL ( 'NONE', ( #11, #118, #151, #29 ) ) ;
#107 = PERSON_AND_ORGANIZATION ( #100, #152 ) ;
#108 = AXIS2_PLACEMENT_3D ( 'NONE', #58, #52, #45 ) ;
#109 = COORDINATED_UNIVERSAL_TIME_OFFSET ( 3, 0, .AHEAD. ) ;
#110 = DESIGN_CONTEXT ( 'detailed design', #40, 'design' ) ;
#111 = FACE_BOUND ( 'NONE', #153, .T. ) ;
#112 = DATE_AND_TIME ( #144, #87 ) ;
#113 = APPROVAL_PERSON_ORGANIZATION ( #166, #23, #20 ) ;
#114 = EDGE_CURVE ( 'NONE', #104, #104, #138, .T. ) ;
#115 = PERSON_AND_ORGANIZATION ( #100, #152 ) ;
#116 = CARTESIAN_POINT ( 'NONE',  ( 0.0000000000000000000, 0.0000000000000000000, 0.0000000000000000000 ) ) ;
#117 = APPROVAL_DATE_TIME ( #142, #38 ) ;
#118 = ADVANCED_FACE ( 'NONE', ( #148, #135 ), #77, .F. ) ;
#119 = LOCAL_TIME ( 9, 12, 35.00000000000000000, #145 ) ;
#120 = EDGE_LOOP ( 'NONE', ( #55 ) ) ;
#121 = EDGE_CURVE ( 'NONE', #73, #73, #123, .T. ) ;
#122 = VERTEX_POINT ( 'NONE', #56 ) ;
#123 = CIRCLE ( 'NONE', #159, 3.200000000000000200 ) ;
#124 = VERTEX_POINT ( 'NONE', #54 ) ;
#125 = DIRECTION ( 'NONE',  ( 0.0000000000000000000, 0.0000000000000000000, 1.000000000000000000 ) ) ;
#126 = ORIENTED_EDGE ( 'NONE', *, *, #97, .F. ) ;
#127 =( GEOMETRIC_REPRESENTATION_CONTEXT ( 3 ) GLOBAL_UNCERTAINTY_ASSIGNED_CONTEXT ( ( #57 ) ) GLOBAL_UNIT_ASSIGNED_CONTEXT ( ( #50, #49, #48 ) ) REPRESENTATION_CONTEXT ( 'NONE', 'WORKASPACE' ) );
#128 = PERSON_AND_ORGANIZATION ( #100, #152 ) ;
#129 = CALENDAR_DATE ( 2016, 12, 2 ) ;
#130 = FACE_OUTER_BOUND ( 'NONE', #160, .T. ) ;
#131 = FACE_OUTER_BOUND ( 'NONE', #165, .T. ) ;
#132 = FACE_OUTER_BOUND ( 'NONE', #120, .T. ) ;
#133 = ADVANCED_BREP_SHAPE_REPRESENTATION ( 'CLP1M-SH-6 +ðùñð ÿûþ¸úð  M6', ( #93, #108 ), #127 ) ;
#134 = EDGE_LOOP ( 'NONE', ( #105 ) ) ;
#135 = FACE_BOUND ( 'NONE', #94, .T. ) ;
#136 = AXIS2_PLACEMENT_3D ( 'NONE', #65, #68, #66 ) ;
#137 = CYLINDRICAL_SURFACE ( 'NONE', #5, 3.200000000000000200 ) ;
#138 = CIRCLE ( 'NONE', #167, 6.000000000000000900 ) ;
#139 = ORIENTED_EDGE ( 'NONE', *, *, #86, .T. ) ;
#140 = PERSON_AND_ORGANIZATION ( #100, #152 ) ;
#141 = DATE_AND_TIME ( #80, #119 ) ;
#142 = DATE_AND_TIME ( #4, #157 ) ;
#143 = DATE_AND_TIME ( #31, #147 ) ;
#144 = CALENDAR_DATE ( 2016, 12, 2 ) ;
#145 = COORDINATED_UNIVERSAL_TIME_OFFSET ( 3, 0, .AHEAD. ) ;
#146 = CC_DESIGN_SECURITY_CLASSIFICATION ( #46, ( #16 ) ) ;
#147 = LOCAL_TIME ( 9, 12, 35.00000000000000000, #109 ) ;
#148 = FACE_OUTER_BOUND ( 'NONE', #156, .T. ) ;
#149 = CIRCLE ( 'NONE', #24, 3.200000000000000200 ) ;
#150 = APPROVAL_DATE_TIME ( #141, #23 ) ;
#151 = ADVANCED_FACE ( 'NONE', ( #19, #162 ), #17, .T. ) ;
#152 = ORGANIZATION ( 'UNSPECIFIED', 'UNSPECIFIED', '' ) ;
#153 = EDGE_LOOP ( 'NONE', ( #158 ) ) ;
#154 = AXIS2_PLACEMENT_3D ( 'NONE', #92, #70, #69 ) ;
#155 = PRODUCT ( 'CLP1M-SH-6 Øàéáà ïëîñêàÿ M6', 'CLP1M-SH-6 Øàéáà ïëîñêàÿ M6', '', ( #42 ) ) ;
#156 = EDGE_LOOP ( 'NONE', ( #3 ) ) ;
#157 = LOCAL_TIME ( 9, 12, 35.00000000000000000, #64 ) ;
#158 = ORIENTED_EDGE ( 'NONE', *, *, #121, .F. ) ;
#159 = AXIS2_PLACEMENT_3D ( 'NONE', #62, #60, #59 ) ;
#160 = EDGE_LOOP ( 'NONE', ( #2 ) ) ;
#161 = COORDINATED_UNIVERSAL_TIME_OFFSET ( 3, 0, .AHEAD. ) ;
#162 = FACE_OUTER_BOUND ( 'NONE', #18, .T. ) ;
#163 = APPROVAL_DATE_TIME ( #112, #8 ) ;
#164 = CC_DESIGN_APPROVAL ( #8, ( #16 ) ) ;
#165 = EDGE_LOOP ( 'NONE', ( #126 ) ) ;
#166 = PERSON_AND_ORGANIZATION ( #100, #152 ) ;
#167 = AXIS2_PLACEMENT_3D ( 'NONE', #75, #74, #72 ) ;
#168 = APPROVAL_PERSON_ORGANIZATION ( #128, #38, #36 ) ;
#169 = PRODUCT_DEFINITION_SHAPE ( 'NONE', 'NONE',  #71 ) ;
ENDSEC;
END-ISO-10303-21;
